ISO-10303-21;
HEADER;
/* Generated by software containing ST-Developer
 * from STEP Tools, Inc. (www.steptools.com) 
 */

FILE_DESCRIPTION(
/* description */ (''),
/* implementation_level */ '2;1');

FILE_NAME(
/* name */ 'Dati-3000_GF$6$Jahr.stp',
/* time_stamp */ '2025-08-28T15:14:23+02:00',
/* author */ ('olafg'),
/* organization */ (''),
/* preprocessor_version */ 'ST-DEVELOPER v20',
/* originating_system */ 'Autodesk Inventor 2024',
/* authorisation */ '');

FILE_SCHEMA (('AUTOMOTIVE_DESIGN { 1 0 10303 214 3 1 1 }'));
ENDSEC;

DATA;
#10=MECHANICAL_DESIGN_GEOMETRIC_PRESENTATION_REPRESENTATION('',(#13),#606);
#11=SHAPE_REPRESENTATION_RELATIONSHIP('SRR','None',#613,#12);
#12=ADVANCED_BREP_SHAPE_REPRESENTATION('',(#14),#605);
#13=STYLED_ITEM('',(#622),#14);
#14=MANIFOLD_SOLID_BREP('Volumenk\X\F6rper1',#343);
#15=FACE_BOUND('',#81,.T.);
#16=FACE_BOUND('',#83,.T.);
#17=CYLINDRICAL_SURFACE('',#393,0.800000000000001);
#18=CYLINDRICAL_SURFACE('',#398,3.);
#19=CIRCLE('',#369,0.0278203230275509);
#20=CIRCLE('',#370,0.135);
#21=CIRCLE('',#373,0.027713171320618);
#22=CIRCLE('',#374,0.134892848293067);
#23=CIRCLE('',#377,0.027713171320618);
#24=CIRCLE('',#378,0.134892848293067);
#25=CIRCLE('',#382,0.0678203230275509);
#26=CIRCLE('',#383,0.175);
#27=CIRCLE('',#386,0.0678203230275509);
#28=CIRCLE('',#387,0.175);
#29=CIRCLE('',#390,0.649999999999995);
#30=CIRCLE('',#392,0.8);
#31=CIRCLE('',#394,0.800000000000001);
#32=CIRCLE('',#396,2.88452994616208);
#33=CIRCLE('',#397,3.);
#34=CIRCLE('',#399,3.);
#35=CONICAL_SURFACE('',#368,0.135,0.261799387799149);
#36=CONICAL_SURFACE('',#372,0.134892848293067,0.261799387799149);
#37=CONICAL_SURFACE('',#376,0.134892848293067,0.261799387799149);
#38=CONICAL_SURFACE('',#381,0.175,0.261799387799149);
#39=CONICAL_SURFACE('',#385,0.175,0.261799387799149);
#40=CONICAL_SURFACE('',#391,0.724999999999998,0.785398163397461);
#41=CONICAL_SURFACE('',#395,2.94226497308104,0.523598775598298);
#42=FACE_OUTER_BOUND('',#62,.T.);
#43=FACE_OUTER_BOUND('',#63,.T.);
#44=FACE_OUTER_BOUND('',#64,.T.);
#45=FACE_OUTER_BOUND('',#65,.T.);
#46=FACE_OUTER_BOUND('',#66,.T.);
#47=FACE_OUTER_BOUND('',#67,.T.);
#48=FACE_OUTER_BOUND('',#68,.T.);
#49=FACE_OUTER_BOUND('',#69,.T.);
#50=FACE_OUTER_BOUND('',#70,.T.);
#51=FACE_OUTER_BOUND('',#71,.T.);
#52=FACE_OUTER_BOUND('',#72,.T.);
#53=FACE_OUTER_BOUND('',#73,.T.);
#54=FACE_OUTER_BOUND('',#74,.T.);
#55=FACE_OUTER_BOUND('',#75,.T.);
#56=FACE_OUTER_BOUND('',#76,.T.);
#57=FACE_OUTER_BOUND('',#77,.T.);
#58=FACE_OUTER_BOUND('',#78,.T.);
#59=FACE_OUTER_BOUND('',#79,.T.);
#60=FACE_OUTER_BOUND('',#80,.T.);
#61=FACE_OUTER_BOUND('',#82,.T.);
#62=EDGE_LOOP('',(#220,#221,#222,#223));
#63=EDGE_LOOP('',(#224,#225,#226,#227));
#64=EDGE_LOOP('',(#228,#229,#230,#231));
#65=EDGE_LOOP('',(#232,#233,#234,#235));
#66=EDGE_LOOP('',(#236,#237,#238,#239));
#67=EDGE_LOOP('',(#240,#241,#242,#243));
#68=EDGE_LOOP('',(#244,#245,#246,#247));
#69=EDGE_LOOP('',(#248,#249,#250,#251));
#70=EDGE_LOOP('',(#252,#253,#254,#255));
#71=EDGE_LOOP('',(#256,#257,#258,#259));
#72=EDGE_LOOP('',(#260,#261,#262,#263));
#73=EDGE_LOOP('',(#264,#265,#266,#267));
#74=EDGE_LOOP('',(#268,#269,#270,#271,#272,#273,#274,#275,#276,#277,#278,
#279));
#75=EDGE_LOOP('',(#280));
#76=EDGE_LOOP('',(#281,#282,#283,#284));
#77=EDGE_LOOP('',(#285,#286,#287,#288));
#78=EDGE_LOOP('',(#289,#290,#291,#292));
#79=EDGE_LOOP('',(#293,#294,#295,#296));
#80=EDGE_LOOP('',(#297));
#81=EDGE_LOOP('',(#298));
#82=EDGE_LOOP('',(#299));
#83=EDGE_LOOP('',(#300,#301,#302,#303,#304,#305,#306,#307,#308,#309,#310,
#311));
#84=LINE('',#510,#114);
#85=LINE('',#512,#115);
#86=LINE('',#514,#116);
#87=LINE('',#515,#117);
#88=LINE('',#518,#118);
#89=LINE('',#520,#119);
#90=LINE('',#521,#120);
#91=LINE('',#527,#121);
#92=LINE('',#530,#122);
#93=LINE('',#532,#123);
#94=LINE('',#533,#124);
#95=LINE('',#539,#125);
#96=LINE('',#542,#126);
#97=LINE('',#544,#127);
#98=LINE('',#545,#128);
#99=LINE('',#551,#129);
#100=LINE('',#554,#130);
#101=LINE('',#556,#131);
#102=LINE('',#557,#132);
#103=LINE('',#560,#133);
#104=LINE('',#562,#134);
#105=LINE('',#563,#135);
#106=LINE('',#569,#136);
#107=LINE('',#572,#137);
#108=LINE('',#574,#138);
#109=LINE('',#575,#139);
#110=LINE('',#586,#140);
#111=LINE('',#590,#141);
#112=LINE('',#595,#142);
#113=LINE('',#600,#143);
#114=VECTOR('',#406,10.);
#115=VECTOR('',#407,10.);
#116=VECTOR('',#408,10.);
#117=VECTOR('',#409,10.);
#118=VECTOR('',#412,10.);
#119=VECTOR('',#413,10.);
#120=VECTOR('',#414,10.);
#121=VECTOR('',#421,10.);
#122=VECTOR('',#424,10.);
#123=VECTOR('',#425,10.);
#124=VECTOR('',#426,10.);
#125=VECTOR('',#433,10.);
#126=VECTOR('',#436,10.);
#127=VECTOR('',#437,10.);
#128=VECTOR('',#438,10.);
#129=VECTOR('',#445,10.);
#130=VECTOR('',#448,10.);
#131=VECTOR('',#449,10.);
#132=VECTOR('',#450,10.);
#133=VECTOR('',#453,10.);
#134=VECTOR('',#454,10.);
#135=VECTOR('',#455,10.);
#136=VECTOR('',#462,10.);
#137=VECTOR('',#465,10.);
#138=VECTOR('',#466,10.);
#139=VECTOR('',#467,10.);
#140=VECTOR('',#484,0.724999999999998);
#141=VECTOR('',#489,0.800000000000001);
#142=VECTOR('',#494,2.94226497308104);
#143=VECTOR('',#501,3.);
#144=VERTEX_POINT('',#508);
#145=VERTEX_POINT('',#509);
#146=VERTEX_POINT('',#511);
#147=VERTEX_POINT('',#513);
#148=VERTEX_POINT('',#517);
#149=VERTEX_POINT('',#519);
#150=VERTEX_POINT('',#523);
#151=VERTEX_POINT('',#525);
#152=VERTEX_POINT('',#529);
#153=VERTEX_POINT('',#531);
#154=VERTEX_POINT('',#535);
#155=VERTEX_POINT('',#537);
#156=VERTEX_POINT('',#541);
#157=VERTEX_POINT('',#543);
#158=VERTEX_POINT('',#547);
#159=VERTEX_POINT('',#549);
#160=VERTEX_POINT('',#553);
#161=VERTEX_POINT('',#555);
#162=VERTEX_POINT('',#559);
#163=VERTEX_POINT('',#561);
#164=VERTEX_POINT('',#565);
#165=VERTEX_POINT('',#567);
#166=VERTEX_POINT('',#571);
#167=VERTEX_POINT('',#573);
#168=VERTEX_POINT('',#581);
#169=VERTEX_POINT('',#584);
#170=VERTEX_POINT('',#588);
#171=VERTEX_POINT('',#592);
#172=VERTEX_POINT('',#594);
#173=VERTEX_POINT('',#598);
#174=EDGE_CURVE('',#144,#145,#84,.T.);
#175=EDGE_CURVE('',#146,#144,#85,.T.);
#176=EDGE_CURVE('',#147,#146,#86,.T.);
#177=EDGE_CURVE('',#147,#145,#87,.T.);
#178=EDGE_CURVE('',#145,#148,#88,.T.);
#179=EDGE_CURVE('',#149,#147,#89,.T.);
#180=EDGE_CURVE('',#149,#148,#90,.T.);
#181=EDGE_CURVE('',#148,#150,#19,.T.);
#182=EDGE_CURVE('',#151,#149,#20,.T.);
#183=EDGE_CURVE('',#151,#150,#91,.T.);
#184=EDGE_CURVE('',#150,#152,#92,.T.);
#185=EDGE_CURVE('',#153,#151,#93,.T.);
#186=EDGE_CURVE('',#153,#152,#94,.T.);
#187=EDGE_CURVE('',#152,#154,#21,.T.);
#188=EDGE_CURVE('',#155,#153,#22,.T.);
#189=EDGE_CURVE('',#155,#154,#95,.T.);
#190=EDGE_CURVE('',#154,#156,#96,.T.);
#191=EDGE_CURVE('',#157,#155,#97,.T.);
#192=EDGE_CURVE('',#157,#156,#98,.T.);
#193=EDGE_CURVE('',#156,#158,#23,.T.);
#194=EDGE_CURVE('',#159,#157,#24,.T.);
#195=EDGE_CURVE('',#159,#158,#99,.T.);
#196=EDGE_CURVE('',#158,#160,#100,.T.);
#197=EDGE_CURVE('',#161,#159,#101,.T.);
#198=EDGE_CURVE('',#161,#160,#102,.T.);
#199=EDGE_CURVE('',#160,#162,#103,.T.);
#200=EDGE_CURVE('',#163,#161,#104,.T.);
#201=EDGE_CURVE('',#163,#162,#105,.T.);
#202=EDGE_CURVE('',#162,#164,#25,.T.);
#203=EDGE_CURVE('',#165,#163,#26,.T.);
#204=EDGE_CURVE('',#165,#164,#106,.T.);
#205=EDGE_CURVE('',#164,#166,#107,.T.);
#206=EDGE_CURVE('',#167,#165,#108,.T.);
#207=EDGE_CURVE('',#167,#166,#109,.T.);
#208=EDGE_CURVE('',#166,#144,#27,.T.);
#209=EDGE_CURVE('',#146,#167,#28,.T.);
#210=EDGE_CURVE('',#168,#168,#29,.T.);
#211=EDGE_CURVE('',#169,#169,#30,.T.);
#212=EDGE_CURVE('',#169,#168,#110,.T.);
#213=EDGE_CURVE('',#170,#170,#31,.T.);
#214=EDGE_CURVE('',#170,#169,#111,.T.);
#215=EDGE_CURVE('',#171,#171,#32,.T.);
#216=EDGE_CURVE('',#171,#172,#112,.T.);
#217=EDGE_CURVE('',#172,#172,#33,.T.);
#218=EDGE_CURVE('',#173,#173,#34,.T.);
#219=EDGE_CURVE('',#173,#172,#113,.T.);
#220=ORIENTED_EDGE('',*,*,#174,.F.);
#221=ORIENTED_EDGE('',*,*,#175,.F.);
#222=ORIENTED_EDGE('',*,*,#176,.F.);
#223=ORIENTED_EDGE('',*,*,#177,.T.);
#224=ORIENTED_EDGE('',*,*,#178,.F.);
#225=ORIENTED_EDGE('',*,*,#177,.F.);
#226=ORIENTED_EDGE('',*,*,#179,.F.);
#227=ORIENTED_EDGE('',*,*,#180,.T.);
#228=ORIENTED_EDGE('',*,*,#181,.F.);
#229=ORIENTED_EDGE('',*,*,#180,.F.);
#230=ORIENTED_EDGE('',*,*,#182,.F.);
#231=ORIENTED_EDGE('',*,*,#183,.T.);
#232=ORIENTED_EDGE('',*,*,#184,.F.);
#233=ORIENTED_EDGE('',*,*,#183,.F.);
#234=ORIENTED_EDGE('',*,*,#185,.F.);
#235=ORIENTED_EDGE('',*,*,#186,.T.);
#236=ORIENTED_EDGE('',*,*,#187,.F.);
#237=ORIENTED_EDGE('',*,*,#186,.F.);
#238=ORIENTED_EDGE('',*,*,#188,.F.);
#239=ORIENTED_EDGE('',*,*,#189,.T.);
#240=ORIENTED_EDGE('',*,*,#190,.F.);
#241=ORIENTED_EDGE('',*,*,#189,.F.);
#242=ORIENTED_EDGE('',*,*,#191,.F.);
#243=ORIENTED_EDGE('',*,*,#192,.T.);
#244=ORIENTED_EDGE('',*,*,#193,.F.);
#245=ORIENTED_EDGE('',*,*,#192,.F.);
#246=ORIENTED_EDGE('',*,*,#194,.F.);
#247=ORIENTED_EDGE('',*,*,#195,.T.);
#248=ORIENTED_EDGE('',*,*,#196,.F.);
#249=ORIENTED_EDGE('',*,*,#195,.F.);
#250=ORIENTED_EDGE('',*,*,#197,.F.);
#251=ORIENTED_EDGE('',*,*,#198,.T.);
#252=ORIENTED_EDGE('',*,*,#199,.F.);
#253=ORIENTED_EDGE('',*,*,#198,.F.);
#254=ORIENTED_EDGE('',*,*,#200,.F.);
#255=ORIENTED_EDGE('',*,*,#201,.T.);
#256=ORIENTED_EDGE('',*,*,#202,.F.);
#257=ORIENTED_EDGE('',*,*,#201,.F.);
#258=ORIENTED_EDGE('',*,*,#203,.F.);
#259=ORIENTED_EDGE('',*,*,#204,.T.);
#260=ORIENTED_EDGE('',*,*,#205,.F.);
#261=ORIENTED_EDGE('',*,*,#204,.F.);
#262=ORIENTED_EDGE('',*,*,#206,.F.);
#263=ORIENTED_EDGE('',*,*,#207,.T.);
#264=ORIENTED_EDGE('',*,*,#208,.F.);
#265=ORIENTED_EDGE('',*,*,#207,.F.);
#266=ORIENTED_EDGE('',*,*,#209,.F.);
#267=ORIENTED_EDGE('',*,*,#175,.T.);
#268=ORIENTED_EDGE('',*,*,#174,.T.);
#269=ORIENTED_EDGE('',*,*,#178,.T.);
#270=ORIENTED_EDGE('',*,*,#181,.T.);
#271=ORIENTED_EDGE('',*,*,#184,.T.);
#272=ORIENTED_EDGE('',*,*,#187,.T.);
#273=ORIENTED_EDGE('',*,*,#190,.T.);
#274=ORIENTED_EDGE('',*,*,#193,.T.);
#275=ORIENTED_EDGE('',*,*,#196,.T.);
#276=ORIENTED_EDGE('',*,*,#199,.T.);
#277=ORIENTED_EDGE('',*,*,#202,.T.);
#278=ORIENTED_EDGE('',*,*,#205,.T.);
#279=ORIENTED_EDGE('',*,*,#208,.T.);
#280=ORIENTED_EDGE('',*,*,#210,.F.);
#281=ORIENTED_EDGE('',*,*,#211,.F.);
#282=ORIENTED_EDGE('',*,*,#212,.T.);
#283=ORIENTED_EDGE('',*,*,#210,.T.);
#284=ORIENTED_EDGE('',*,*,#212,.F.);
#285=ORIENTED_EDGE('',*,*,#213,.F.);
#286=ORIENTED_EDGE('',*,*,#214,.T.);
#287=ORIENTED_EDGE('',*,*,#211,.T.);
#288=ORIENTED_EDGE('',*,*,#214,.F.);
#289=ORIENTED_EDGE('',*,*,#215,.T.);
#290=ORIENTED_EDGE('',*,*,#216,.T.);
#291=ORIENTED_EDGE('',*,*,#217,.T.);
#292=ORIENTED_EDGE('',*,*,#216,.F.);
#293=ORIENTED_EDGE('',*,*,#218,.T.);
#294=ORIENTED_EDGE('',*,*,#219,.T.);
#295=ORIENTED_EDGE('',*,*,#217,.F.);
#296=ORIENTED_EDGE('',*,*,#219,.F.);
#297=ORIENTED_EDGE('',*,*,#215,.F.);
#298=ORIENTED_EDGE('',*,*,#213,.T.);
#299=ORIENTED_EDGE('',*,*,#218,.F.);
#300=ORIENTED_EDGE('',*,*,#176,.T.);
#301=ORIENTED_EDGE('',*,*,#209,.T.);
#302=ORIENTED_EDGE('',*,*,#206,.T.);
#303=ORIENTED_EDGE('',*,*,#203,.T.);
#304=ORIENTED_EDGE('',*,*,#200,.T.);
#305=ORIENTED_EDGE('',*,*,#197,.T.);
#306=ORIENTED_EDGE('',*,*,#194,.T.);
#307=ORIENTED_EDGE('',*,*,#191,.T.);
#308=ORIENTED_EDGE('',*,*,#188,.T.);
#309=ORIENTED_EDGE('',*,*,#185,.T.);
#310=ORIENTED_EDGE('',*,*,#182,.T.);
#311=ORIENTED_EDGE('',*,*,#179,.T.);
#312=PLANE('',#366);
#313=PLANE('',#367);
#314=PLANE('',#371);
#315=PLANE('',#375);
#316=PLANE('',#379);
#317=PLANE('',#380);
#318=PLANE('',#384);
#319=PLANE('',#388);
#320=PLANE('',#389);
#321=PLANE('',#400);
#322=PLANE('',#401);
#323=ADVANCED_FACE('',(#42),#312,.F.);
#324=ADVANCED_FACE('',(#43),#313,.F.);
#325=ADVANCED_FACE('',(#44),#35,.F.);
#326=ADVANCED_FACE('',(#45),#314,.F.);
#327=ADVANCED_FACE('',(#46),#36,.F.);
#328=ADVANCED_FACE('',(#47),#315,.F.);
#329=ADVANCED_FACE('',(#48),#37,.F.);
#330=ADVANCED_FACE('',(#49),#316,.F.);
#331=ADVANCED_FACE('',(#50),#317,.F.);
#332=ADVANCED_FACE('',(#51),#38,.F.);
#333=ADVANCED_FACE('',(#52),#318,.F.);
#334=ADVANCED_FACE('',(#53),#39,.F.);
#335=ADVANCED_FACE('',(#54),#319,.T.);
#336=ADVANCED_FACE('',(#55),#320,.T.);
#337=ADVANCED_FACE('',(#56),#40,.T.);
#338=ADVANCED_FACE('',(#57),#17,.T.);
#339=ADVANCED_FACE('',(#58),#41,.T.);
#340=ADVANCED_FACE('',(#59),#18,.T.);
#341=ADVANCED_FACE('',(#60,#15),#321,.T.);
#342=ADVANCED_FACE('',(#61,#16),#322,.F.);
#343=CLOSED_SHELL('',(#323,#324,#325,#326,#327,#328,#329,#330,#331,#332,
#333,#334,#335,#336,#337,#338,#339,#340,#341,#342));
#344=DERIVED_UNIT_ELEMENT(#347,1.);
#345=DERIVED_UNIT_ELEMENT(#608,-3.);
#346=DIMENSIONAL_EXPONENTS(0.,1.,0.,0.,0.,0.,0.);
#347=(
CONVERSION_BASED_UNIT('gram',#349)
MASS_UNIT()
NAMED_UNIT(#346)
);
#348=(
MASS_UNIT()
NAMED_UNIT(*)
SI_UNIT(.KILO.,.GRAM.)
);
#349=MASS_MEASURE_WITH_UNIT(MASS_MEASURE(0.001),#348);
#350=DERIVED_UNIT((#344,#345));
#351=MEASURE_REPRESENTATION_ITEM('density measure',
POSITIVE_RATIO_MEASURE(7.85),#350);
#352=PROPERTY_DEFINITION_REPRESENTATION(#357,#354);
#353=PROPERTY_DEFINITION_REPRESENTATION(#358,#355);
#354=REPRESENTATION('material name',(#356),#605);
#355=REPRESENTATION('density',(#351),#605);
#356=DESCRIPTIVE_REPRESENTATION_ITEM('Stahl','Stahl');
#357=PROPERTY_DEFINITION('material property','material name',#615);
#358=PROPERTY_DEFINITION('material property','density of part',#615);
#359=DATE_TIME_ROLE('creation_date');
#360=APPLIED_DATE_AND_TIME_ASSIGNMENT(#361,#359,(#615));
#361=DATE_AND_TIME(#362,#363);
#362=CALENDAR_DATE(2015,24,4);
#363=LOCAL_TIME(0,0,0.,#364);
#364=COORDINATED_UNIVERSAL_TIME_OFFSET(0,0,.BEHIND.);
#365=AXIS2_PLACEMENT_3D('',#506,#402,#403);
#366=AXIS2_PLACEMENT_3D('',#507,#404,#405);
#367=AXIS2_PLACEMENT_3D('',#516,#410,#411);
#368=AXIS2_PLACEMENT_3D('',#522,#415,#416);
#369=AXIS2_PLACEMENT_3D('',#524,#417,#418);
#370=AXIS2_PLACEMENT_3D('',#526,#419,#420);
#371=AXIS2_PLACEMENT_3D('',#528,#422,#423);
#372=AXIS2_PLACEMENT_3D('',#534,#427,#428);
#373=AXIS2_PLACEMENT_3D('',#536,#429,#430);
#374=AXIS2_PLACEMENT_3D('',#538,#431,#432);
#375=AXIS2_PLACEMENT_3D('',#540,#434,#435);
#376=AXIS2_PLACEMENT_3D('',#546,#439,#440);
#377=AXIS2_PLACEMENT_3D('',#548,#441,#442);
#378=AXIS2_PLACEMENT_3D('',#550,#443,#444);
#379=AXIS2_PLACEMENT_3D('',#552,#446,#447);
#380=AXIS2_PLACEMENT_3D('',#558,#451,#452);
#381=AXIS2_PLACEMENT_3D('',#564,#456,#457);
#382=AXIS2_PLACEMENT_3D('',#566,#458,#459);
#383=AXIS2_PLACEMENT_3D('',#568,#460,#461);
#384=AXIS2_PLACEMENT_3D('',#570,#463,#464);
#385=AXIS2_PLACEMENT_3D('',#576,#468,#469);
#386=AXIS2_PLACEMENT_3D('',#577,#470,#471);
#387=AXIS2_PLACEMENT_3D('',#578,#472,#473);
#388=AXIS2_PLACEMENT_3D('',#579,#474,#475);
#389=AXIS2_PLACEMENT_3D('',#580,#476,#477);
#390=AXIS2_PLACEMENT_3D('',#582,#478,#479);
#391=AXIS2_PLACEMENT_3D('',#583,#480,#481);
#392=AXIS2_PLACEMENT_3D('',#585,#482,#483);
#393=AXIS2_PLACEMENT_3D('',#587,#485,#486);
#394=AXIS2_PLACEMENT_3D('',#589,#487,#488);
#395=AXIS2_PLACEMENT_3D('',#591,#490,#491);
#396=AXIS2_PLACEMENT_3D('',#593,#492,#493);
#397=AXIS2_PLACEMENT_3D('',#596,#495,#496);
#398=AXIS2_PLACEMENT_3D('',#597,#497,#498);
#399=AXIS2_PLACEMENT_3D('',#599,#499,#500);
#400=AXIS2_PLACEMENT_3D('',#601,#502,#503);
#401=AXIS2_PLACEMENT_3D('',#602,#504,#505);
#402=DIRECTION('axis',(0.,0.,1.));
#403=DIRECTION('refdir',(1.,0.,0.));
#404=DIRECTION('center_axis',(-0.965925826289068,-2.3725510894385E-17,-0.258819045102521));
#405=DIRECTION('ref_axis',(-2.45624562970167E-17,1.,0.));
#406=DIRECTION('',(2.45624562970167E-17,-1.,0.));
#407=DIRECTION('',(0.258819045102521,0.,-0.965925826289068));
#408=DIRECTION('',(-2.45624562970167E-17,1.,0.));
#409=DIRECTION('',(0.250562807085732,-0.250562807085731,-0.93511312653103));
#410=DIRECTION('center_axis',(-3.57464364142067E-15,0.965925826289068,-0.258819045102521));
#411=DIRECTION('ref_axis',(1.,3.70074341541718E-15,0.));
#412=DIRECTION('',(-1.,-3.70074341541718E-15,0.));
#413=DIRECTION('',(1.,3.70074341541718E-15,0.));
#414=DIRECTION('',(1.00536852414957E-15,-0.258819045102521,-0.965925826289068));
#415=DIRECTION('center_axis',(0.,0.,1.));
#416=DIRECTION('ref_axis',(-4.11193712824132E-15,1.,0.));
#417=DIRECTION('center_axis',(0.,0.,1.));
#418=DIRECTION('ref_axis',(-4.11193712824132E-15,1.,0.));
#419=DIRECTION('center_axis',(0.,0.,-1.));
#420=DIRECTION('ref_axis',(-4.11193712824132E-15,1.,0.));
#421=DIRECTION('',(0.232619120259227,0.113470890529704,-0.965925826289068));
#422=DIRECTION('center_axis',(-0.868146375619408,-0.423479128636943,-0.258819045102521));
#423=DIRECTION('ref_axis',(-0.438417854778645,0.898771263788118,0.));
#424=DIRECTION('',(0.438417854778645,-0.898771263788118,0.));
#425=DIRECTION('',(-0.438417854778645,0.898771263788118,0.));
#426=DIRECTION('',(0.232619120259226,0.113470890529704,-0.965925826289068));
#427=DIRECTION('center_axis',(0.,0.,1.));
#428=DIRECTION('ref_axis',(-0.898771263788118,-0.438417854778644,0.));
#429=DIRECTION('center_axis',(0.,0.,1.));
#430=DIRECTION('ref_axis',(-0.898771263788118,-0.438417854778644,0.));
#431=DIRECTION('center_axis',(0.,0.,-1.));
#432=DIRECTION('ref_axis',(-0.898771263788118,-0.438417854778644,0.));
#433=DIRECTION('',(-0.23263091272649,0.113446712388772,-0.965925826289068));
#434=DIRECTION('center_axis',(0.868190385706383,-0.42338889458655,-0.258819045102521));
#435=DIRECTION('ref_axis',(-0.438324437615611,-0.898816826382861,0.));
#436=DIRECTION('',(0.438324437615611,0.898816826382861,0.));
#437=DIRECTION('',(-0.438324437615611,-0.898816826382861,0.));
#438=DIRECTION('',(-0.232630912726491,0.113446712388772,-0.965925826289068));
#439=DIRECTION('center_axis',(0.,0.,1.));
#440=DIRECTION('ref_axis',(0.898816826382861,-0.438324437615611,0.));
#441=DIRECTION('center_axis',(0.,0.,1.));
#442=DIRECTION('ref_axis',(0.898816826382861,-0.438324437615611,0.));
#443=DIRECTION('center_axis',(0.,0.,-1.));
#444=DIRECTION('ref_axis',(0.898816826382861,-0.438324437615611,0.));
#445=DIRECTION('',(0.,-0.258819045102521,-0.965925826289068));
#446=DIRECTION('center_axis',(0.,0.965925826289068,-0.258819045102521));
#447=DIRECTION('ref_axis',(1.,0.,0.));
#448=DIRECTION('',(-1.,0.,0.));
#449=DIRECTION('',(1.,0.,0.));
#450=DIRECTION('',(-0.250562807085732,-0.250562807085732,-0.935113126531029));
#451=DIRECTION('center_axis',(0.965925826289068,0.,-0.258819045102521));
#452=DIRECTION('ref_axis',(0.,-1.,0.));
#453=DIRECTION('',(0.,1.,0.));
#454=DIRECTION('',(0.,-1.,0.));
#455=DIRECTION('',(-0.258819045102521,0.,-0.965925826289068));
#456=DIRECTION('center_axis',(0.,0.,1.));
#457=DIRECTION('ref_axis',(1.,0.,0.));
#458=DIRECTION('center_axis',(0.,0.,1.));
#459=DIRECTION('ref_axis',(1.,0.,0.));
#460=DIRECTION('center_axis',(0.,0.,-1.));
#461=DIRECTION('ref_axis',(1.,0.,0.));
#462=DIRECTION('',(0.,-0.258819045102521,-0.965925826289068));
#463=DIRECTION('center_axis',(0.,0.965925826289068,-0.258819045102521));
#464=DIRECTION('ref_axis',(1.,0.,0.));
#465=DIRECTION('',(-1.,0.,0.));
#466=DIRECTION('',(1.,0.,0.));
#467=DIRECTION('',(0.,-0.25881904510252,-0.965925826289068));
#468=DIRECTION('center_axis',(0.,0.,1.));
#469=DIRECTION('ref_axis',(0.,1.,0.));
#470=DIRECTION('center_axis',(0.,0.,1.));
#471=DIRECTION('ref_axis',(0.,1.,0.));
#472=DIRECTION('center_axis',(0.,0.,-1.));
#473=DIRECTION('ref_axis',(0.,1.,0.));
#474=DIRECTION('center_axis',(1.46070432868829E-30,-8.07893626161526E-31,
1.));
#475=DIRECTION('ref_axis',(1.,0.,-1.46070432868829E-30));
#476=DIRECTION('center_axis',(0.,1.83697019872103E-16,-1.));
#477=DIRECTION('ref_axis',(-1.,0.,0.));
#478=DIRECTION('center_axis',(0.,-1.83697019872103E-16,1.));
#479=DIRECTION('ref_axis',(0.,-1.,-1.83697019872103E-16));
#480=DIRECTION('center_axis',(0.,-1.83697019872103E-16,1.));
#481=DIRECTION('ref_axis',(0.,-1.,-1.83697019872103E-16));
#482=DIRECTION('center_axis',(0.,-1.83697019872103E-16,1.));
#483=DIRECTION('ref_axis',(0.,-1.,-1.83697019872103E-16));
#484=DIRECTION('',(8.65956056235505E-17,-0.707106781186556,-0.707106781186539));
#485=DIRECTION('center_axis',(0.,-1.83697019872103E-16,1.));
#486=DIRECTION('ref_axis',(0.,-1.,-1.83697019872103E-16));
#487=DIRECTION('center_axis',(0.,0.,1.));
#488=DIRECTION('ref_axis',(0.,-1.,-1.83697019872103E-16));
#489=DIRECTION('',(0.,1.83697019872103E-16,-1.));
#490=DIRECTION('center_axis',(0.,0.,1.));
#491=DIRECTION('ref_axis',(-1.,0.,0.));
#492=DIRECTION('center_axis',(0.,0.,1.));
#493=DIRECTION('ref_axis',(-1.,0.,0.));
#494=DIRECTION('',(0.499999999999999,-6.12323399573676E-17,0.866025403784439));
#495=DIRECTION('center_axis',(0.,0.,-1.));
#496=DIRECTION('ref_axis',(-1.,0.,0.));
#497=DIRECTION('center_axis',(0.,0.,1.));
#498=DIRECTION('ref_axis',(-1.,0.,0.));
#499=DIRECTION('center_axis',(0.,0.,-1.));
#500=DIRECTION('ref_axis',(-1.,0.,0.));
#501=DIRECTION('',(0.,0.,-1.));
#502=DIRECTION('center_axis',(0.,0.,-1.));
#503=DIRECTION('ref_axis',(-1.,0.,0.));
#504=DIRECTION('center_axis',(0.,0.,-1.));
#505=DIRECTION('ref_axis',(-1.,0.,0.));
#506=CARTESIAN_POINT('',(0.,0.,0.));
#507=CARTESIAN_POINT('Origin',(-0.35,1.925,2.8));
#508=CARTESIAN_POINT('',(-0.242820323027551,1.925,2.4));
#509=CARTESIAN_POINT('',(-0.242820323027551,-1.00717967697245,2.4));
#510=CARTESIAN_POINT('',(-0.242820323027551,1.925,2.4));
#511=CARTESIAN_POINT('',(-0.35,1.925,2.8));
#512=CARTESIAN_POINT('',(-0.35,1.925,2.8));
#513=CARTESIAN_POINT('',(-0.35,-0.899999999999999,2.8));
#514=CARTESIAN_POINT('',(-0.35,0.9625,2.8));
#515=CARTESIAN_POINT('',(-0.438679179916238,-0.811320820083762,3.13095520502094));
#516=CARTESIAN_POINT('Origin',(-0.35,-0.899999999999999,2.8));
#517=CARTESIAN_POINT('',(-0.65,-1.00717967697245,2.4));
#518=CARTESIAN_POINT('',(-0.35,-1.00717967697245,2.4));
#519=CARTESIAN_POINT('',(-0.65,-0.9,2.8));
#520=CARTESIAN_POINT('',(-0.174999999999998,-0.899999999999998,2.8));
#521=CARTESIAN_POINT('',(-0.65,-0.9,2.8));
#522=CARTESIAN_POINT('Origin',(-0.65,-1.035,2.8));
#523=CARTESIAN_POINT('',(-0.675004106886465,-1.04719692634099,2.4));
#524=CARTESIAN_POINT('Origin',(-0.65,-1.035,2.4));
#525=CARTESIAN_POINT('',(-0.771334120611396,-1.09418641039512,2.8));
#526=CARTESIAN_POINT('Origin',(-0.65,-1.035,2.8));
#527=CARTESIAN_POINT('',(-0.771334120611396,-1.09418641039512,2.8));
#528=CARTESIAN_POINT('Origin',(-0.771334120611396,-1.09418641039512,2.8));
#529=CARTESIAN_POINT('',(-0.0249078020114081,-2.37991609173982,2.4));
#530=CARTESIAN_POINT('',(-0.675004106886466,-1.04719692634099,2.4));
#531=CARTESIAN_POINT('',(-0.121237815736338,-2.42690557579395,2.8));
#532=CARTESIAN_POINT('',(-0.912780139278022,-0.804217341915944,2.8));
#533=CARTESIAN_POINT('',(-0.121237815736338,-2.42690557579395,2.8));
#534=CARTESIAN_POINT('Origin',(2.76327998155957E-16,-2.36776614262032,2.8));
#535=CARTESIAN_POINT('',(0.0249090646954025,-2.37991350285398,2.4));
#536=CARTESIAN_POINT('Origin',(2.76327998155957E-16,-2.36776614262032,2.4));
#537=CARTESIAN_POINT('',(0.121243961804519,-2.42689297448675,2.8));
#538=CARTESIAN_POINT('Origin',(2.76327998155957E-16,-2.36776614262032,2.8));
#539=CARTESIAN_POINT('',(0.121243961804519,-2.42689297448675,2.8));
#540=CARTESIAN_POINT('Origin',(0.121243961804519,-2.42689297448675,2.8));
#541=CARTESIAN_POINT('',(0.674909064695402,-1.04704020852672,2.4));
#542=CARTESIAN_POINT('',(0.0249090646954026,-2.37991350285398,2.4));
#543=CARTESIAN_POINT('',(0.771243961804519,-1.09401968015949,2.8));
#544=CARTESIAN_POINT('',(0.58766237686673,-1.47046735999619,2.8));
#545=CARTESIAN_POINT('',(0.771243961804519,-1.09401968015949,2.8));
#546=CARTESIAN_POINT('Origin',(0.65,-1.03489284829307,2.8));
#547=CARTESIAN_POINT('',(0.65,-1.00717967697245,2.4));
#548=CARTESIAN_POINT('Origin',(0.65,-1.03489284829307,2.4));
#549=CARTESIAN_POINT('',(0.65,-0.9,2.8));
#550=CARTESIAN_POINT('Origin',(0.65,-1.03489284829307,2.8));
#551=CARTESIAN_POINT('',(0.65,-0.9,2.8));
#552=CARTESIAN_POINT('Origin',(0.65,-0.9,2.8));
#553=CARTESIAN_POINT('',(0.242820323027551,-1.00717967697245,2.4));
#554=CARTESIAN_POINT('',(0.65,-1.00717967697245,2.4));
#555=CARTESIAN_POINT('',(0.35,-0.9,2.8));
#556=CARTESIAN_POINT('',(0.325,-0.9,2.8));
#557=CARTESIAN_POINT('',(0.359417258044202,-0.890582741955798,2.83514568548895));
#558=CARTESIAN_POINT('Origin',(0.35,-0.9,2.8));
#559=CARTESIAN_POINT('',(0.242820323027551,1.925,2.4));
#560=CARTESIAN_POINT('',(0.242820323027551,-0.9,2.4));
#561=CARTESIAN_POINT('',(0.35,1.925,2.8));
#562=CARTESIAN_POINT('',(0.35,-0.45,2.8));
#563=CARTESIAN_POINT('',(0.35,1.925,2.8));
#564=CARTESIAN_POINT('Origin',(0.175,1.925,2.8));
#565=CARTESIAN_POINT('',(0.175,1.99282032302755,2.4));
#566=CARTESIAN_POINT('Origin',(0.175,1.925,2.4));
#567=CARTESIAN_POINT('',(0.175,2.1,2.8));
#568=CARTESIAN_POINT('Origin',(0.175,1.925,2.8));
#569=CARTESIAN_POINT('',(0.175,2.1,2.8));
#570=CARTESIAN_POINT('Origin',(0.175,2.1,2.8));
#571=CARTESIAN_POINT('',(-0.175,1.99282032302755,2.4));
#572=CARTESIAN_POINT('',(0.175,1.99282032302755,2.4));
#573=CARTESIAN_POINT('',(-0.175,2.1,2.8));
#574=CARTESIAN_POINT('',(0.0875,2.1,2.8));
#575=CARTESIAN_POINT('',(-0.175,2.1,2.8));
#576=CARTESIAN_POINT('Origin',(-0.175,1.925,2.8));
#577=CARTESIAN_POINT('Origin',(-0.175,1.925,2.4));
#578=CARTESIAN_POINT('Origin',(-0.175,1.925,2.8));
#579=CARTESIAN_POINT('Origin',(-1.91022879318312E-5,-0.208974316313699,
2.4));
#580=CARTESIAN_POINT('Origin',(0.,-0.324999999999996,-10.2));
#581=CARTESIAN_POINT('',(-7.96020419445774E-17,0.649999999999997,-10.2));
#582=CARTESIAN_POINT('Origin',(0.,1.87370960269545E-15,-10.2));
#583=CARTESIAN_POINT('Origin',(0.,1.85993232620504E-15,-10.125));
#584=CARTESIAN_POINT('',(-9.79717439317883E-17,0.800000000000002,-10.05));
#585=CARTESIAN_POINT('Origin',(0.,1.84615504971463E-15,-10.05));
#586=CARTESIAN_POINT('',(-8.87868929381828E-17,0.724999999999999,-10.125));
#587=CARTESIAN_POINT('Origin',(0.,9.23077524857317E-16,-5.025));
#588=CARTESIAN_POINT('',(-9.79717439317884E-17,0.800000000000001,0.));
#589=CARTESIAN_POINT('Origin',(0.,0.,0.));
#590=CARTESIAN_POINT('',(-9.79717439317884E-17,0.800000000000002,-5.025));
#591=CARTESIAN_POINT('Origin',(0.,0.,0.1));
#592=CARTESIAN_POINT('',(2.88452994616208,3.53253036561207E-16,0.));
#593=CARTESIAN_POINT('Origin',(0.,0.,0.));
#594=CARTESIAN_POINT('',(3.,-3.67394039744206E-16,0.2));
#595=CARTESIAN_POINT('',(2.94226497308104,-3.60323538152707E-16,0.1));
#596=CARTESIAN_POINT('Origin',(0.,0.,0.2));
#597=CARTESIAN_POINT('Origin',(0.,0.,0.));
#598=CARTESIAN_POINT('',(3.,3.67394039744206E-16,2.8));
#599=CARTESIAN_POINT('Origin',(0.,0.,2.8));
#600=CARTESIAN_POINT('',(3.,3.67394039744206E-16,0.));
#601=CARTESIAN_POINT('Origin',(0.,0.,0.));
#602=CARTESIAN_POINT('Origin',(0.,0.,2.8));
#603=UNCERTAINTY_MEASURE_WITH_UNIT(LENGTH_MEASURE(0.01),#607,
'DISTANCE_ACCURACY_VALUE',
'Maximum model space distance between geometric entities at asserted c
onnectivities');
#604=UNCERTAINTY_MEASURE_WITH_UNIT(LENGTH_MEASURE(0.01),#607,
'DISTANCE_ACCURACY_VALUE',
'Maximum model space distance between geometric entities at asserted c
onnectivities');
#605=(
GEOMETRIC_REPRESENTATION_CONTEXT(3)
GLOBAL_UNCERTAINTY_ASSIGNED_CONTEXT((#603))
GLOBAL_UNIT_ASSIGNED_CONTEXT((#607,#609,#610))
REPRESENTATION_CONTEXT('','3D')
);
#606=(
GEOMETRIC_REPRESENTATION_CONTEXT(3)
GLOBAL_UNCERTAINTY_ASSIGNED_CONTEXT((#604))
GLOBAL_UNIT_ASSIGNED_CONTEXT((#607,#609,#610))
REPRESENTATION_CONTEXT('','3D')
);
#607=(
LENGTH_UNIT()
NAMED_UNIT(*)
SI_UNIT(.MILLI.,.METRE.)
);
#608=(
LENGTH_UNIT()
NAMED_UNIT(*)
SI_UNIT(.CENTI.,.METRE.)
);
#609=(
NAMED_UNIT(*)
PLANE_ANGLE_UNIT()
SI_UNIT($,.RADIAN.)
);
#610=(
NAMED_UNIT(*)
SI_UNIT($,.STERADIAN.)
SOLID_ANGLE_UNIT()
);
#611=SHAPE_DEFINITION_REPRESENTATION(#612,#613);
#612=PRODUCT_DEFINITION_SHAPE('',$,#615);
#613=SHAPE_REPRESENTATION('',(#365),#605);
#614=PRODUCT_DEFINITION_CONTEXT('part definition',#619,'design');
#615=PRODUCT_DEFINITION('3006-05-00 F Stelleinsatz',
'3006-05-00 G Stelleinsatz',#616,#614);
#616=PRODUCT_DEFINITION_FORMATION('',$,#621);
#617=PRODUCT_RELATED_PRODUCT_CATEGORY('3006-05-00 G Stelleinsatz',
'3006-05-00 G Stelleinsatz',(#621));
#618=APPLICATION_PROTOCOL_DEFINITION('international standard',
'automotive_design',2009,#619);
#619=APPLICATION_CONTEXT(
'Core Data for Automotive Mechanical Design Process');
#620=PRODUCT_CONTEXT('part definition',#619,'mechanical');
#621=PRODUCT('3006-05-00 F Stelleinsatz','3006-05-00 G Stelleinsatz',$,
(#620));
#622=PRESENTATION_STYLE_ASSIGNMENT((#623));
#623=SURFACE_STYLE_USAGE(.BOTH.,#626);
#624=SURFACE_STYLE_RENDERING_WITH_PROPERTIES($,#630,(#625));
#625=SURFACE_STYLE_TRANSPARENT(0.);
#626=SURFACE_SIDE_STYLE('',(#627,#624));
#627=SURFACE_STYLE_FILL_AREA(#628);
#628=FILL_AREA_STYLE('',(#629));
#629=FILL_AREA_STYLE_COLOUR('',#630);
#630=COLOUR_RGB('',0.752941176470588,0.752941176470588,0.752941176470588);
ENDSEC;
END-ISO-10303-21;
